*ÂM GIAI NGŨ CUNG – THE PENTATONIC SCALE

*ÂM GIAI NGŨ CUNG – THE PENTATONIC SCALE

4dummies.info

Ở đâu đó lâu lắm rồi, khi bắt đầu tìm hiểu về Âm giai|Scale|Gamme|Gam mình có đọc 1 tài liệu mà những người đi trước nói rằng, khi bạn chưa hề có bất kỳ khái niệm gì với Scale thì hãy bắt đầu bằng PENTATONIC SCALE sau đó hãy học tiếp các âm giai khác.

Âm giai Ngũ cung

Âm giai Ngũ cung

Âm giai Pentatonic (Ngũ Cung) rất quan trọng bởi vì nó được sử dụng rộng rãi trong nhạc Rock, Blues, Metal, Jazz, Fusion, Country và nhiều thể loại khác. Nó không quá khó để học và ghi nhớ.

INTERVALS (Quãng): Âm giai Pentatonic chỉ bao gồm 5 nốt, bắt đầu bởi nốt gốc và kết thúc là 1 quãng 8 của nốt gốc. 

1 b3 4 5 b7 8(=1)(=octave/quãng 8)

Công thức của nó là: 1 1/2, W, W, 1 1/2, W
Ghi chú: 1 1/2 = 3 half steps [1,5 cung] (3 frets/3 ngăn) W = Whole step [1 cung](2 frets/2 ngăn)

Ví dụ: Hãy bắt đầu bằng nốt A (Ngăn 5 dây số 6 – dây E thấp), tiếp tục đi lên 1,5 cung ta có nốt C, sau đó lên 1 cung ta có D, lên tiếp 1 cung ta có E, lên 1,5 cung ta có G và cuối cùng lên 1 cung ta quay lại A. Vì thế những nốt trong âm giai ngũ cung tone A bao gồm: A C D E G A

Video dưới đây kèm theo tab hướng dẫn bao gồm 2 quãng tám của âm giai Pentatonic
A C D E G A C D E G A

Ngoài ra còn 5 thế bấm của PENTATONIC SCALE, từ hình có chú thích các ngăn cho các bạn tham khảo để tự học (Muốn biết kỹ hơn hãy xem qua bài viết này: Âm giai|Scale|Gamme|Gam để nắm rõ) và bài luyện tập: CHUỖI 3 NOTE dựa trên các thế bấm của Scale Ngũ Cung (Pentatonic scale).

Việc thực hành bài tập này giúp người chơi guitar quen với cảm giác, giai điệu, thế bấm của scale Ngũ Cung. Có thể ứng dụng chúng ở những câu kết của bài nhạc, thử ứng dụng để lead các đoạn nhạc theo cái cách bạn nghĩ hoặc solo. “Pentatonic triplet sequence” thường xuất hiện nhiều trong các bài nhạc Rock, Metal, Blues…

Bài thực hành được chia sẽ bởi GUITARHABITS của tác giả 

5 thế bấm của âm giai ngũ cung (Pentatonic Scale) bạn cần biết

PENTATONIC SCALE POSITION #1 / E SHAPE:
e:————————5-8-5—————————————–|
B:——————–5-8——-8-5————————————-|
G:—————5-7—————-7-5———————————|
D:———-5-7————————-7-5—————————–|
A:—–5-7———————————-7-5————————-|
E:-5-8——————————————8-5———————|

PENTATONIC SCALE POSITION #2 / D SHAPE:
e:—————————-8-10-8————————————|
B:———————-8-10———-10-8——————————|
G:—————–7-9———————9-7————————–|
D:————7-10——————————10-7——————–|
A:——7-10—————————————–10-7—————|
E:-8-10—————————————————-10-8———|

PENTATONIC SCALE POSITION #3 / C SHAPE:
e:——————————10-12-10——————————–|
B:————————10-13———-13-10————————–|
G:——————-9-12———————-12-9———————|
D:————-10-12——————————–12-10—————|
A:——-10-12——————————————–12-10———|
E:-10-12——————————————————–12-10—|

PENTATONIC SCALE POSITION #4 / A SHAPE:
e:——————————-12-15-12——————————-|
B:————————-13-15———-15-13————————-|
G:——————-12-14———————-14-12——————-|
D:————-12-14———————————-14-12————-|
A:——-12-15———————————————-15-12——-|
E:-12-15———————————————————-15-12-|

PENTATONIC SCALE POSITION #5 / G SHAPE:
e:——————————-15-17-15——————————-|
B:————————-15-17———-17-15————————-|
G:——————-14-17———————-17-14——————-|
D:————-14-17———————————-17-14————-|
A:——-15-17———————————————-17-15——-|
E:-15-17———————————————————-17-15-|

PENTATONIC SCALE POSITION #5 / G SHAPE:
(1 octave lower = 12 half steps down)
e:————————3-5-3—————————————–|
B:——————–3-5——-5-3————————————-|
G:—————2-5—————-5-2———————————|
D:———-2-5————————-5-2—————————–|
A:—–3-5———————————-5-3————————-|
E:-3-5——————————————5-3———————|

Bên cạnh đó các bạn cần luyện tập thông qua một số bài tập để luyện tốc độ và kỹ năng.

EXERCISE 1 (A PENTATONIC)

e-----------------------------------------------------5---5-8---------|
B-----------------------------------------5---5-8-5-8---8-------------|
G-----------------------------5---5-7-5-7---7-------------------------|
D-----------------5---5-7-5-7---7-------------------------------------|
A-----5---5-7-5-7---7-------------------------------------------------|
E-5-8---8-------------------------------------------------------------|

EXERCISE 2 (A BLUES)
e-------------------------------------------------------------------5-|
B-------------------------------------------------------5---5-8-5-8---|
G-------------------------------------5---5-7-5-7-8-7-8---8-----------|
D-------------------------5---5-7-5-7---7-----------------------------|
A-------5---5-6-5-6-7-6-7---7-----------------------------------------|
E-8-5-8---8-----------------------------------------------------------|

EXERCISE 3 (A PENTATONIC ALL OVER THE NECK)
e---------------------------------------------------------------------|
B-------------------------------------------------------8---8-10-8-10-|
G-------------------------------------5---5-7-5-7-9-7-9---9-----------|
D-------------------------5---5-7-5-7---7-----------------------------|
A-------3---3-5-3-5-7-5-7---7-----------------------------------------|
E-5-3-5---5-----------------------------------------------------------|

e--8----8-10-8-10-12-10-12-15~----------------------------------------|
B----10---------------------------------------------------------------|
G---------------------------------------------------------------------|
D---------------------------------------------------------------------|
A---------------------------------------------------------------------|
E---------------------------------------------------------------------|

EXERCISE 4 (A MAJOR)
e---------------------------------------------------------------------|
B-----------------------------------------------------------5---5-7---|
G-----------------------------------------4---4-6-4-6-7-6-7---7-------|
D-----------------------4---4-6-4-6-7-6-7---7-------------------------|
A-----4---4-5-4-5-7-5-7---7-------------------------------------------|
E-5-7---7-------------------------------------------------------------|

e-----4---4-5---------------------------------------------------------|
B-5-7---7-------------------------------------------------------------|
G---------------------------------------------------------------------|
D---------------------------------------------------------------------|
A---------------------------------------------------------------------|
E---------------------------------------------------------------------|
EXERCISE 5 (A MINOR)
e---------------------------------------------------------------------|
B-----------------------------------------------------------5---5-6---|
G-----------------------------------------4---4-5-4-5-7-5-7---7-------|
D-----------------------------5---5-7-5-7---7-------------------------|
A-----------5---5-7-5-7-8-7-8---8-------------------------------------|
E-5-7-8-7-8---8-------------------------------------------------------|

e-----------5---------------------------------------------------------|
B-5-6-8-6-8-----------------------------------------------------------|
G---------------------------------------------------------------------|
D---------------------------------------------------------------------|
A---------------------------------------------------------------------|
E---------------------------------------------------------------------|

BACKING TRACK

Slow Rock Blues Backing track in A minor

(c)Hình Như Là – 4dummies.info

Facebook: http://www.facebook.com/4dummies.info


 

Advertisements
  1. Nguyenhungmtqb@gmail.com

    Tập theo bracking trac thế nào a

  2. cho e hỏi tí làm sao để nghe một bài nhạc mk bik lead theo scale j v ạ

    • Hello bạn. Hãy thử dùng tai và dò thử trong các mẫu thế tay âm giai nào đó. Nếu các nốt nhạc trong âm giai đều thường nghe lọt tai thì chính là nó. Thử và sai =)

      • Em đã từng hỏi thử một số người có khiếu nhạc và một số thầy dạy nhạc. Trong số đó có 1 vài người bảo họ nghe vài lần hoặc 1 lần là biết đang chơi hợp âm gì hay âm giai gì? Điều đó trong thực tế có đúng không anh? Hay là hơi nổ :).

      • Chắc là ý họ nói những hợp âm phổ thông hay dùng. Còn những hợp âm kiểu màu mè, bỏ nốt hay thêm nốt thì thiên biến vạn hoá cả ngàn hợp âm chắc không thể biết hết được.

  3. Sao E shape lại bắt đầu + kết thúc bằng nốt A, và ngược lại
    Còn C shape lại bắt đầu + kết thúc bằng nốt D, và ngược lại.

Trả lời

Mời bạn điền thông tin vào ô dưới đây hoặc kích vào một biểu tượng để đăng nhập:

WordPress.com Logo

Bạn đang bình luận bằng tài khoản WordPress.com Đăng xuất / Thay đổi )

Twitter picture

Bạn đang bình luận bằng tài khoản Twitter Đăng xuất / Thay đổi )

Facebook photo

Bạn đang bình luận bằng tài khoản Facebook Đăng xuất / Thay đổi )

Google+ photo

Bạn đang bình luận bằng tài khoản Google+ Đăng xuất / Thay đổi )

Connecting to %s

%d bloggers like this: