16 BÀI TẬP FINGERPICKING

Fingerpicking – sử dụng bằng ngón cái, xen bass là một thuật ngữ được sử dụng để mô tả cả một phong cách chơi/một thể loại âm nhạc thuộc Fingerstyle. Kỹ thuật này được sử dụng nhiều tại các bài hát nổi tiếng từ Đông sang Tây trong nhiều năm qua.

16 bài tập dưới đây mình sưu tầm và lưu trữ từ website: GUITARHABITS do Klaus Crow sáng lập và hướng dẫn.

Đây là một nguồn tư liệu quý với 16 ví dụ phổ biến mà bạn sẽ gặp phải trong việc ứng dụng để chơi các bài hát nước ngoài hay Việt Nam. Khi bạn tập quen, có thể thử và sử dụng chúng trong việc chơi những bài nhạc mà mình ưa thích.

Fingerpicking

Fingerpicking

BÀI TẬP 1:

   A                                E
e:-------0-------|-------0-------|-------0-------|--------0-----------|
B:-----2---2-----|-----2---2-----|-----0---0-----|-----0----0---------|
G:---2-------2---|---2-------2---|---1-------1---|---1--------1-------|
D:---------------|---------------|---------------|--------------------|
A:-0-------------|-0-------------|---------------|--------------------|
E:---------------|---------------|-0-------------|-0------------------|

BÀI TẬP 2:

   A                                     E
e:-------0---------|-------0---------|-------0---------|-------0---------|
B:-----2-----2-----|-----2-----2-----|-----0-----0-----|-----0-----0-----|
G:---2-----2-----2-|---2-----2-----2-|---1-----1-----1-|---1-----1-----1-|
D:-------------2---|-------------2---|-------------2---|-------------2---|
A:-0-----0---------|-0-----0---------|-----------------|-----------------|
E:-----------------|-----------------|-0-----0---------|-0-----0---------|

BÀI TẬP 3:

   A                                   E
e:-------0---------|-------0---------|-------0---------|--------0---------|
B:-----2---2-------|-----2---2-------|-----0---0-------|-----0----0-------|
G:---2-------2---2-|---2-------2---2-|---1-------1---1-|---1--------1---1-|
D:-------------2---|-------------2---|-------------2---|--------------2---|
A:-0---------------|-0---------------|-----------------|------------------|
E:-----------------|-----------------|-0---------------|-0----------------|

BÀI TẬP 4:

  A                                    E
e:-----------------|-----------------|-----------------|-----------------|
B:-------2-------2-|-------2-------2-|-------0-------0-|-------0-------0-|
G:---2-------2-----|---2-------2-----|---1-------1-----|---1-------1-----|
D:-----2-------2---|-----2-------2---|-----2-------2---|-----2-------2---|
A:-0-------0-------|-0-------0-------|-----------------|-----------------|
E:-----------------|-----------------|-0--------0------|-0-------0-------|

BÀI TẬP 5:

  A                            E
e:-------------|-------------|-------------|--------------|
B:---------2---|---------2---|---------0---|---------0----|
G:-----2-------|-----2-------|-----1-------|-----1--------|
D:---2-------2-|---2-------2-|---2-------2-|---2-------2--|
A:-0-----0-----|-0-----0-----|-------------|--------------|
E:-------------|-------------|-0------0----|-0------0-----|

 

BÀI TẬP 6:

  A                                     E
e:---------0-------|---------0-------|---------0-------|---------0-------|
B:-----2-----2---2-|-----2-----2---2-|-----0-----0---0-|-----0-----0---0-|
G:-----2-------2---|-----2-------2---|-----1-------1---|-----1-------1---|
D:---2---2---------|---2---2---------|---2---2---------|---2---2---------|
A:-0---------------|-0---------------|-----------------|-----------------|
E:-----------------|-----------------|-0---------------|-0---------------|

 

BÀI TẬP 7:

  A                 E               D               A
e:---0-----0-----|---0-----0-----|---2-----2-----|---0------0---------|
B:---2-----2-----|---0-----0-----|---3-----3-----|---2------2---------|
G:---2-----2-----|---1-----1-----|---2-----2-----|---2------2---------|
D:---------------|---------------|-0-----0-------|--------------------|
A:-0-----0-------|---------------|---------------|-0------0-----------|
E:---------------|-0-----0-------|---------------|--------------------|

 

BÀI TẬP 8:

  A                                  E
e:----------0-----|----------0-----|----------0-----|----------0-----|
B:-------2----2---|-------2----2---|-------0----0---|-------0----0---|
G:-----2--------2-|-----2--------2-|-----1--------1-|-----1--------1-|
D:---2------------|---2------------|---2------------|---2------------|
A:-0--------------|-0--------------|----------------|----------------|
E:----------------|----------------|-0--------------|-0--------------|

 

BÀI TẬP 9:

  A                                    E
e:---0-------------|---0-------------|---0-------------|---0-------------|
B:-----2---2-------|-----2---2-------|-----0---0-------|-----0---0-------|
G:-------2---2---2-|-------2---2---2-|-------1---1---1-|-------1---1---1-|
D:-------------2---|-------------2---|-------------2---|-------------2---|
A:-0---------------|-0---------------|-----------------|-----------------|
E:-----------------|-----------------|-0---------------|-0---------------|

 

BÀI TẬP 10:

  A                     E                      A

e:----------0---------|----------0----------|----------0----------|
B:-------2----2-------|-------0----0--------|-------2----2--------|
G:-----2--------2---2-|-----1--------1---1--|-----2--------2---2--|
D:---2------------2---|---2------------2----|---2------------2----|
A:-0------------------|---------------------|-0-------------------|
E:--------------------|-0-------------------|---------------------|

 

BÀI TẬP 11:

  A                                     E
e:-----------------|-----------------|-----------------|-----------------|
B:---------2-------|---------2-------|---------0-------|---------0-------|
G:-----2-----2---2-|-----2-----2---2-|-----1-----1---1-|-----1-----1---1-|
D:---2---2-----2---|---2---2-----2---|---2---2-----2---|---2---2-----2---|
A:-0---------------|-0---------------|-----------------|-----------------|
E:-----------------|-----------------|-0---------------|-0---------------|

 

BÀI TẬP 12:

  A                            E
e:-------------0-----------|-------------0------------|
B:-2-------2-----------2---|-0-------0-----------0----|
G:-----2-----------2-------|-----1-----------1--------|
D:---2-------2---2-------2-|---2-------2---2-------2--|
A:-0-----0-----0-----0-----|--------------------------|
E:-------------------------|-0------0----0------0-----|

 

BÀI TẬP 13:

   A                           E
e:-------------0-----------|-------------0------------|
B:-----2-----2-----2-----2-|-----0-----0-----0-----0--|
G:---2-----2-----2-----2---|---1-----1-----1-----1----|
D:-------2-----------2-----|-------2-----------2------|
A:-0-----------0-----------|--------------------------|
E:-------------------------|-0-----------0------------|

 

BÀI TẬP 14:

  A                                    E
e:-----------------|-----------------|-----------------|-----------------|
B:---2-------2-----|---2-------2-----|--0-------0------|---0-------0-----|
G:-------2-------2-|-------2-------2-|-------1-------1-|-------1-------1-|
D:-----2-------2---|-----2-------2---|-----2-------2---|-----2-------2---|
A:-0-------0-------|-0-------0-------|-----------------|-----------------|
E:-----------------|-----------------|-0--------0------|-0-------0-------|

 

BÀI TẬP 15:

  A                                    E
e:-------0-------0-|-------0-------0-|-------0-------0-|-------0-------0-|
B:---2-------2-----|---2-------2-----|---0-------0-----|---0-------0-----|
G:-----2-------2---|-----2-------2---|-----1-------1---|-----1-------1---|
D:-----------------|-----------------|-----------------|-----------------|
A:-0-------0-------|-0------0--------|-----------------|-----------------|
E:-----------------|-----------------|-0-------0-------|-0-------0-------|

BÀI TẬP 16:

  A                            E
e:-------------|-------------|---------------|----------------|
B:-----------2-|-----------2-|-------------0-|--------------0-|
G:-------2-----|-------2-----|--------1------|--------1-------|
D:---2-----2---|---2-----2---|---2-------2---|---2-------2----|
A:-0-----------|-0-----------|-----2---------|-----2----------|
E:-----0-------|-----0-------|-0-------------|-0--------------|

Một lần nữa cảm ơn GUITARHABITS vì sự chia sẻ hữu ích này.

(c)Hình Như Là

 

  1. [19/09/2013]NHỮNG GHI CHÉP VỤN VẶT VỀ NHỮNG ỨNG DỤNG CỦA CÁC BÀI TẬP TRÊN

    1. Bài tập số 1: Ở Việt Nam nó đồn là điệu Slow Rock (nhịp 6/8) nên các bạn có thể tất cả các bài Slow Rock 1 cách nhẹ nhàng. Các bài Trịnh Công Sơn, Tuổi hồng thơ ngây và 1 cơ số các bài khác mình có đăng trên phần download Hợp âm ở mục Guitar.

    2. Bài tập số 2: Các bạn có thể ứng dụng thay thế cho điệu Ballad (4/4) truyền thống [Bass 3231323 Bass] mà mọi người hay chơi để thay đổi cho nó có vị mới. Ví dụ có thể ứng dụng vào bài Suy Nghĩ Trong Anh (Canon in C), Quê hương tôi, Yên Bình hay hàng tá các bài có điệu Ballad thường thấy, thử là ngon lành cành đào ngay.

    3. Bài tập số 3: Tương tự bài số 2

    4. Bài tập số 6: Đọc lại ý 2, ý 3.

    [19/09/2013 – Hình Như Là]

  2. [1/10/2013]NHỮNG GHI CHÉP VỤN VẶT VỀ NHỮNG ỨNG DỤNG CỦA CÁC BÀI TẬP TRÊN

    1. Bài tập số 7: ở Việt Nam, các bạn chơi guitar hay gọi là điệu Mental Ballad. Và dĩ nhiên là nó có thể chơi cho tất cả những bài Ballad Việt Nam và nước ngoài. Mình thường sử dụng cách đánh này cho bài No Matter What, Như vậy nhé, Cánh Buồm Phiêu Du,cũng như khá nhiều bản nhạc khác.

    2. Bài tập số 8 và Bài số 10: 2 cách đánh này thì rất rất nhiều bài nhạc Việt sử dụng cách đánh này vì nó cũng là Ballad (rải). Ứng dụng thì bài nào chơi kiểu này nhịp 4/4 cũng được: Mong ước kỷ niệm xưa, Cha, Phút bối rối….không thể đếm hết được.

    3. Bài tập số 11: Bài này thì chính là cách đánh thuần túy của Việt Nam về điệu Ballad, nhưng bài tập trên không dùng dây Mi cao (Dây số 1).

    [Thứ 3 – Hình Như Là]

  3. [18/10/2013]NHỮNG GHI CHÉP VỤN VẶT VỀ NHỮNG ỨNG DỤNG CỦA CÁC BÀI TẬP TRÊN
    Bài tập số 10: Là một biến thể của điệu CHA CHA CHA (Rải), các bạn có thể ứng dụng cho những bài nhạc có nhịp 4/4. Chachacha, Ballad…

    Sài gòn đẹp lắm sài gòn ơi sài gòn ơi…là một bài nhạc điển hình điệu Cha Cha Cha.

Trả lời

Mời bạn điền thông tin vào ô dưới đây hoặc kích vào một biểu tượng để đăng nhập:

WordPress.com Logo

Bạn đang bình luận bằng tài khoản WordPress.com Đăng xuất / Thay đổi )

Twitter picture

Bạn đang bình luận bằng tài khoản Twitter Đăng xuất / Thay đổi )

Facebook photo

Bạn đang bình luận bằng tài khoản Facebook Đăng xuất / Thay đổi )

Google+ photo

Bạn đang bình luận bằng tài khoản Google+ Đăng xuất / Thay đổi )

Connecting to %s

%d bloggers like this: